0
SECTION
2
HEADER
9
$INSUNITS
70
4
9
$ACADVER
1
AC1014
9
$HANDSEED
5
FFFF
0
ENDSEC
0
SECTION
2
TABLES
0
TABLE
2
VPORT
5
8
100
AcDbSymbolTable
0
ENDTAB
0
TABLE
2
LTYPE
5
5
100
AcDbSymbolTable
0
LTYPE
5
14
100
AcDbSymbolTableRecord
100
AcDbLinetypeTableRecord
2
BYBLOCK
70
0
0
LTYPE
5
15
100
AcDbSymbolTableRecord
100
AcDbLinetypeTableRecord
2
BYLAYER
70
0
0
ENDTAB
0
TABLE
2
LAYER
5
2
100
AcDbSymbolTable
70
2
0
LAYER
5
50
100
AcDbSymbolTableRecord
100
AcDbLayerTableRecord
2
0
70
0
6
CONTINUOUS
0
ENDTAB
0
TABLE
2
STYLE
5
3
100
AcDbSymbolTable
70
1
0
STYLE
5
11
100
AcDbSymbolTableRecord
100
AcDbTextStyleTableRecord
2
STANDARD
70
0
0
ENDTAB
0
TABLE
2
VIEW
5
6
100
AcDbSymbolTable
70
0
0
ENDTAB
0
TABLE
2
UCS
5
7
100
AcDbSymbolTable
70
0
0
ENDTAB
0
TABLE
2
APPID
5
9
100
AcDbSymbolTable
70
2
0
APPID
5
12
100
AcDbSymbolTableRecord
100
AcDbRegAppTableRecord
2
ACAD
70
0
0
ENDTAB
0
TABLE
2
DIMSTYLE
5
A
100
AcDbSymbolTable
70
1
0
ENDTAB
0
TABLE
2
BLOCK_RECORD
5
1
100
AcDbSymbolTable
70
1
0
BLOCK_RECORD
5
1F
100
AcDbSymbolTableRecord
100
AcDbBlockTableRecord
2
*MODEL_SPACE
0
BLOCK_RECORD
5
1B
100
AcDbSymbolTableRecord
100
AcDbBlockTableRecord
2
*PAPER_SPACE
0
ENDTAB
0
ENDSEC
0
SECTION
2
BLOCKS
0
BLOCK
5
20
100
AcDbEntity
100
AcDbBlockBegin
2
*MODEL_SPACE
0
ENDBLK
5
21
100
AcDbEntity
100
AcDbBlockEnd
0
BLOCK
5
1C
100
AcDbEntity
100
AcDbBlockBegin
2
*PAPER_SPACE
0
ENDBLK
5
1D
100
AcDbEntity
100
AcDbBlockEnd
0
ENDSEC
0
SECTION
2
ENTITIES
0
ARC
5
100
100
AcDbEntity
8
0
100
AcDbCircle
10
-2.3334523779156031
20
390.70845237791565
30
0
40
3.299999999999998
210
0
220
0
230
1
100
AcDbArc
50
-135.00000000000017
51
45.000000000000526
0
LINE
5
101
100
AcDbEntity
8
0
100
AcDbLine
10
-4.666904755831208
20
388.37500000000006
30
0
11
-18
21
388.37500000000006
31
0
0
LINE
5
102
100
AcDbEntity
8
0
100
AcDbLine
10
-18
20
388.37500000000006
30
0
11
-18
21
278.37500000000006
31
0
0
LINE
5
103
100
AcDbEntity
8
0
100
AcDbLine
10
-18
20
278.37500000000006
30
0
11
-4.6669047558312098
21
278.37500000000006
31
0
0
ARC
5
104
100
AcDbEntity
8
0
100
AcDbCircle
10
-2.3334523779156031
20
276.04154762208447
30
0
40
3.2999999999999967
210
-0
220
0
230
1
100
AcDbArc
50
-45.000000000000561
51
135.0000000000002
0
LINE
5
105
100
AcDbEntity
8
0
100
AcDbLine
10
0
20
273.70809524416882
30
0
11
0
21
170.79190475583118
31
0
0
ARC
5
106
100
AcDbEntity
8
0
100
AcDbCircle
10
-2.3334523779156031
20
168.45845237791559
30
0
40
3.299999999999998
210
0
220
0
230
1
100
AcDbArc
50
-134.9999999999998
51
44.999999999999858
0
LINE
5
107
100
AcDbEntity
8
0
100
AcDbLine
10
-4.666904755831208
20
166.12499999999997
30
0
11
-18
21
166.12499999999997
31
0
0
LINE
5
108
100
AcDbEntity
8
0
100
AcDbLine
10
-18
20
166.12499999999997
30
0
11
-18
21
56.124999999999972
31
0
0
LINE
5
109
100
AcDbEntity
8
0
100
AcDbLine
10
-18
20
56.124999999999972
30
0
11
-4.6669047558312098
21
56.124999999999972
31
0
0
ARC
5
110
100
AcDbEntity
8
0
100
AcDbCircle
10
-2.3334523779156031
20
53.791547622084366
30
0
40
3.2999999999999967
210
-0
220
0
230
1
100
AcDbArc
50
-45.00000000000005
51
135.00000000000003
0
LINE
5
111
100
AcDbEntity
8
0
100
AcDbLine
10
0
20
51.45809524416876
30
0
11
0
21
0
31
0
0
LINE
5
112
100
AcDbEntity
8
0
100
AcDbLine
10
0
20
0
30
0
11
101.59999999999997
21
5.3211569146654019e-15
31
0
0
LINE
5
113
100
AcDbEntity
8
0
100
AcDbLine
10
101.59999999999997
20
5.3211569146654019e-15
30
0
11
180.51103717096555
21
294.50000000000023
31
0
0
LINE
5
114
100
AcDbEntity
8
0
100
AcDbLine
10
180.51103717096555
20
294.50000000000023
30
0
11
384.48896282903524
21
294.49999999999983
31
0
0
LINE
5
115
100
AcDbEntity
8
0
100
AcDbLine
10
384.48896282903524
20
294.49999999999983
30
0
11
463.40000000000003
21
0
31
0
0
LINE
5
116
100
AcDbEntity
8
0
100
AcDbLine
10
463.40000000000003
20
0
30
0
11
565
21
-3.2146153146547655e-14
31
0
0
LINE
5
117
100
AcDbEntity
8
0
100
AcDbLine
10
565
20
-3.2146153146547655e-14
30
0
11
565
21
51.458095244169016
31
0
0
ARC
5
118
100
AcDbEntity
8
0
100
AcDbCircle
10
567.33345237791559
20
53.791547622084678
30
0
40
3.2999999999999794
210
0
220
-0
230
1
100
AcDbArc
50
44.999999999993534
51
225.00000000000085
0
LINE
5
119
100
AcDbEntity
8
0
100
AcDbLine
10
569.66690475583141
20
56.124999999999972
30
0
11
583
21
56.124999999999972
31
0
0
LINE
5
120
100
AcDbEntity
8
0
100
AcDbLine
10
583
20
56.124999999999972
30
0
11
583
21
166.12499999999997
31
0
0
LINE
5
121
100
AcDbEntity
8
0
100
AcDbLine
10
583
20
166.12499999999997
30
0
11
569.66690475583061
21
166.12499999999997
31
0
0
ARC
5
122
100
AcDbEntity
8
0
100
AcDbCircle
10
567.33345237791536
20
168.4584523779159
30
0
40
3.2999999999999736
210
0
220
0
230
1
100
AcDbArc
50
134.99999999999477
51
314.99999999999159
0
LINE
5
123
100
AcDbEntity
8
0
100
AcDbLine
10
565
20
170.79190475583169
30
0
11
565
21
273.70809524416887
31
0
0
ARC
5
124
100
AcDbEntity
8
0
100
AcDbCircle
10
567.33345237791536
20
276.04154762208475
30
0
40
3.2999999999999985
210
0
220
-0
230
1
100
AcDbArc
50
44.999999999994408
51
225.00000000000628
0
LINE
5
125
100
AcDbEntity
8
0
100
AcDbLine
10
569.66690475583118
20
278.37500000000011
30
0
11
583
21
278.37500000000006
31
0
0
LINE
5
126
100
AcDbEntity
8
0
100
AcDbLine
10
583
20
278.37500000000006
30
0
11
583
21
388.37500000000006
31
0
0
LINE
5
127
100
AcDbEntity
8
0
100
AcDbLine
10
583
20
388.37500000000006
30
0
11
569.6669047558305
21
388.37500000000006
31
0
0
ARC
5
128
100
AcDbEntity
8
0
100
AcDbCircle
10
567.33345237791514
20
390.70845237791588
30
0
40
3.2999999999999985
210
0
220
0
230
1
100
AcDbArc
50
134.99999999998815
51
314.99999999999443
0
LINE
5
129
100
AcDbEntity
8
0
100
AcDbLine
10
565
20
393.04190475583198
30
0
11
565
21
800
31
0
0
LINE
5
130
100
AcDbEntity
8
0
100
AcDbLine
10
565
20
800
30
0
11
522.68424164185922
21
800
31
0
0
LINE
5
131
100
AcDbEntity
8
0
100
AcDbLine
10
522.68424164185922
20
800
30
0
11
519.15343670638117
21
779.97581016080687
31
0
0
ARC
5
132
100
AcDbEntity
8
0
100
AcDbCircle
10
516.45023496022759
20
778.08300792084833
30
0
40
3.2999999999998901
210
0
220
0
230
1
100
AcDbArc
50
-144.99999999999832
51
35.000000000002188
0
LINE
5
133
100
AcDbEntity
8
0
100
AcDbLine
10
513.74703321407412
20
776.1902056808899
30
0
11
500.61649764596621
21
778.5054733726995
31
0
0
LINE
5
134
100
AcDbEntity
8
0
100
AcDbLine
10
500.61649764596621
20
778.5054733726995
30
0
11
491.93408876261969
21
729.265085722089
31
0
0
LINE
5
135
100
AcDbEntity
8
0
100
AcDbLine
10
491.93408876261969
20
729.265085722089
30
0
11
505.06462433072682
21
726.94981803027963
31
0
0
ARC
5
136
100
AcDbEntity
8
0
100
AcDbCircle
10
506.95742657068547
20
724.24661628412593
30
0
40
3.3000000000001291
210
-0
220
0
230
1
100
AcDbArc
50
-54.999999999995715
51
125.00000000000269
0
LINE
5
137
100
AcDbEntity
8
0
100
AcDbLine
10
508.85022881064424
20
721.54341453797224
30
0
11
493.8890021037941
21
636.69408151623418
31
0
0
ARC
5
138
100
AcDbEntity
8
0
100
AcDbCircle
10
491.1858003576404
20
634.80127927627586
30
0
40
3.299999999999943
210
0
220
0
230
1
100
AcDbArc
50
-145.00000000000222
51
34.999999999997819
0
LINE
5
139
100
AcDbEntity
8
0
100
AcDbLine
10
488.48259861148671
20
632.90847703631755
30
0
11
475.35206304337919
21
635.22374472812703
31
0
0
LINE
5
140
100
AcDbEntity
8
0
100
AcDbLine
10
475.35206304337919
20
635.22374472812703
30
0
11
466.66965416003268
21
585.98335707751653
31
0
0
LINE
5
141
100
AcDbEntity
8
0
100
AcDbLine
10
466.66965416003268
20
585.98335707751653
30
0
11
479.80018972814048
21
583.66808938570693
31
0
0
ARC
5
142
100
AcDbEntity
8
0
100
AcDbCircle
10
481.6929919680988
20
580.96488763955324
30
0
40
3.3000000000000007
210
-0
220
0
230
1
100
AcDbArc
50
-55.000000000003297
51
124.99999999999783
0
LINE
5
143
100
AcDbEntity
8
0
100
AcDbLine
10
483.58579420805711
20
578.26168589339943
30
0
11
460.73668472052304
21
448.67794666229281
31
0
0
ARC
5
144
100
AcDbEntity
8
0
100
AcDbCircle
10
457.87880088803456
20
447.02794666229272
30
0
40
3.2999999999999243
210
0
220
0
230
1
100
AcDbArc
50
-129.99999999999838
51
30.000000000002796
0
LINE
5
145
100
AcDbEntity
8
0
100
AcDbLine
10
455.75760177606912
20
444.50000000000011
30
0
11
404.66690475583198
21
444.50000000000011
31
0
0
ARC
5
146
100
AcDbEntity
8
0
100
AcDbCircle
10
402.33345237791571
20
446.83345237791491
30
0
40
3.3000000000000491
210
0
220
0
230
1
100
AcDbArc
50
135.00000000000139
51
315.00000000001819
0
LINE
5
147
100
AcDbEntity
8
0
100
AcDbLine
10
400
20
449.1669047558305
30
0
11
400
21
462.50000000000006
31
0
0
LINE
5
148
100
AcDbEntity
8
0
100
AcDbLine
10
400
20
462.50000000000006
30
0
11
290
21
462.50000000000006
31
0
0
LINE
5
149
100
AcDbEntity
8
0
100
AcDbLine
10
290
20
462.50000000000006
30
0
11
290
21
449.1669047558309
31
0
0
ARC
5
150
100
AcDbEntity
8
0
100
AcDbCircle
10
287.66654762208441
20
446.83345237791536
30
0
40
3.2999999999999479
210
0
220
0
230
1
100
AcDbArc
50
-135.00000000000838
51
44.999999999999304
0
LINE
5
151
100
AcDbEntity
8
0
100
AcDbLine
10
285.33309524416848
20
444.50000000000011
30
0
11
174.66690475583118
21
444.5
31
0
0
ARC
5
152
100
AcDbEntity
8
0
100
AcDbCircle
10
172.33345237791556
20
446.83345237791559
30
0
40
3.2999999999998981
210
0
220
0
230
1
100
AcDbArc
50
135.00000000000071
51
315.00000000000034
0
LINE
5
153
100
AcDbEntity
8
0
100
AcDbLine
10
170.00000000000003
20
449.16690475583107
30
0
11
170
21
462.5
31
0
0
LINE
5
154
100
AcDbEntity
8
0
100
AcDbLine
10
170
20
462.5
30
0
11
60
21
462.5
31
0
0
LINE
5
155
100
AcDbEntity
8
0
100
AcDbLine
10
60
20
462.5
30
0
11
60
21
449.16690475583107
31
0
0
ARC
5
156
100
AcDbEntity
8
0
100
AcDbCircle
10
57.666547622084401
20
446.83345237791559
30
0
40
3.2999999999999421
210
0
220
0
230
1
100
AcDbArc
50
-135.00000000000011
51
44.999999999998508
0
LINE
5
157
100
AcDbEntity
8
0
100
AcDbLine
10
55.333095244168803
20
444.5
30
0
11
0
21
444.5
31
0
0
LINE
5
158
100
AcDbEntity
8
0
100
AcDbLine
10
0
20
444.5
30
0
11
2.506211547808026e-15
21
393.0419047558313
31
0
0
ENDSEC
0
SECTION
2
OBJECTS
0
DICTIONARY
5
C
100
AcDbDictionary
3
ACAD_GROUP
350
D
3
ACAD_MLINESTYLE
350
17
0
DICTIONARY
5
D
100
AcDbDictionary
0
DICTIONARY
5
1A
330
C
100
AcDbDictionary
0
DICTIONARY
5
17
100
AcDbDictionary
0
ENDSEC
0
EOF
